Webサイト ギター練習

ギターで速弾きするまえの準備運動

投稿日:

スポンサードリンク

-Webサイト, ギター練習
-, ,

スポンサードリンク

速弾きする前のエクササイズとしてやってみましょう。

Exercise 1 上昇

e|-------------------------------------------------------------------------|
B|-------------------------------------------------------5-8-5-------------|
G|---------------------------------------5-7-5-------5-7-------7-5-7-------|
D|-----------------------5-7-5-------5-7-------7-5-7-----------------------|
A|------5-7-5--------5-7-------7-5-7---------------------------------------|
E|--5-8-------8-5-8--------------------------------------------------------|

e|------5-8-5--------|
B|--5-8-------8-5-8--|
G|-------------------|
D|-------------------|
A|-------------------|
E|-------------------|

Exercise 2 下降

e|--5-8-5------------------------------------------------------------------|
B|--------8-5-------5-8-5--------------------------------------------------|
G|------------7-5-7-------7-5-------5-7-5----------------------------------|
D|----------------------------7-5-7-------7-5-------5-7-5------------------|
A|--------------------------------------------7-5-7-------7-5--------------|
E|------------------------------------------------------------8-5----------|

Exercise 3  Blues scale 

e|--------------------------5-8-----|
B|----------------------5-8---------|
G|----------------5-7-8-------------|
D|------------5-7-------------------|
A|------5-6-7-----------------------|
E|--5-8-----------------------------|

Exercise 4

This is maybe the hardest and therefore ill take you through the fingerings aswell.
e|----------------------5-7---|
B|------------------5-7-------|
G|--------------4-6-----------|
D|----------4-7---------------|
A|------4-7-------------------|
E|--5-7-----------------------|

Exercise 4は1つのフレットごとに使用する指を固定して行います。
人差し指 - 4th フレット
中指   - 5th フレット
薬指  - 6th フレット
小指   - 7th フレット

この手の機械的な運指練習は♪=60くらいから始めて徐々にアップしていきましょう。

■参照元
Before 'Shredding' | Lessons @ Ultimate-Guitar.Com

R.A.S.式ピッキング 速弾き攻略のための究極メソッド (CD付) (ギター・マガジン)

R.A.S.式ピッキング 速弾き攻略のための究極メソッド (CD付) (ギター・マガジン)

一緒に弾ける!速弾きギター超入門 [DVD]

一緒に弾ける!速弾きギター超入門 [DVD]
超絶ギタリストになるための思考と練習法 (ギター・マガジン)
超絶ギタリストになるための思考と練習法 (ギター・マガジン)

速弾きハノン ギタリストのためのフィンガリングトレーニング(CD付)

テキスト用のタグ
速弾きハノン ギタリストのためのフィンガリングトレーニング(CD付)

家で眠っている使ってないギターはありませんか?出張買取、店舗買取、宅配買取に対応したオススメのギター買い取りサービス。 出張料・査定料など全て無料!で気兼ねなく相談できます。

Copyright© 誰得ギター , 2018 AllRights Reserved Powered by AFFINGER4.