ギター練習 レッスン

意外と曲者フレーズ[1]

投稿日:

スポンサードリンク
スポンサードリンク

-ギター練習, レッスン
-,

小指と人指し指はフレットの上に固定しておきます。
中指と薬指のみ動かす。
中指と薬指の分離を狙った練習フレーズですが
小指と人指し指を固定しながらというのはやったことがないとかなり苦しいですが、
速弾きしたいならこれはできないとだめです。

■Exercise 1

e|--------------------------11-|
B|---------------------10------|
G|------------------9-----------|
D|----------9-10--------------|
A|------------------------------|
E|------------------------------|

Exercise 1は1つのフレットごとに使用する指を固定して行います。
人差し指 – 8th フレット
中指   – 9th フレット
薬指  – 10th フレット
小指   – 11th フレット

逆にするとかなり難しいです。
■Exercise 1

e|--------11------------------|
B|------------10--------------|
G|-----------------9-----------|
D|-------------------10-9----|
A|------------------------------|
E|------------------------------|

comment

メールアドレスが公開されることはありません。 * が付いている欄は必須項目です

家で眠っている使ってないギターはありませんか?出張買取、店舗買取、宅配買取に対応したオススメのギター買い取りサービス。 出張料・査定料など全て無料!で気兼ねなく相談できます。

Copyright© 誰得ギター , 2018 AllRights Reserved Powered by AFFINGER4.